Desert Song Tabs

XshadowfireX's picture

Desert Song Tabs

ok so here are the guitar tabs from earlyier but edited a little

i think this is more correct than the last

Guitar 2
|-<5>----------------<5>-----------12~~--|
|-----<5>~-<5>-<0>~------<5>~---12~~-----|
|----------------------------------------|
|----------------------------------------|
|----------------------------------------|
|----------------------------------------|

Verse

|-----------------------------------------|
|-----------------------------------------|
|-12-121212-11-111111/14-141414-11-111111-|
|-x--x-x-x--x--x-x-x--x--x-x-x--x--x-x-x--|
|-10-101010-9--9-9-9-/12-121212-9--9-9-9--|
|-----------------------------------------|

Pre-Chorus

|-----------------------------------------|
|-----------------------------------------|
|-16-161616/14-141414-17/171717/14-141414-|
|-x--x-x-x--x--x-x-x--x--x-x-x--x--x-x-x--|
|-14-141414/12-121212-15/151515/12-121212-|
|-----------------------------------------|

|-----------------------------------------|
|-----------------------------------------|
|-12-121212-11-111111/14-141414-11-111111-|
|-x--x-x-x--x--x-x-x--x--x-x-x--x--x-x-x--|
|-10-101010-9--9-9-9-/12-121212-9--9-9-9--|
|-----------------------------------------|

Verse 2
|------------------------|
|------------------------|
|-16------------------12-|
|-x-------------------x--| Strummed I dont know the strumming
|-14------------------10-|
|------------------------|

Chorus

|----------------------------------------------------------------------|
|----------------------------------------------------------------------|
|-19-191919-16-161616-14-14/17-16/14-12-121212/14-141414/16-161616-12--|
|-x--x-x-x--x--x-x-x--x--x--x--x--x--x--x-x-x--x--x-x-x--x--x-x-x--x---|
|-17-171717-14-141414-12-12/15-14/12-10-101010/12-121212/14-141414-10--|
|----------------------------------------------------------------------|

|----------------------------------------------------|
|----------------------------------------------------|
|-17-1616-1616--17-1616-1616-9-999-7-777-12-12121212-|
|-x--x-x--x-x---x--x-x--x-x--x-xxx-x-xxx-x--x-x-x-x--|
|-15-1414-1414--15-1414-1414-7-777-5-555-10-10101010-|
|----------------------------------------------------|

|-------------------------|
|-------------------------|
|-9-999-7-777-12-12121212-|
|-x-xxx-x-xxx-x--x-x-x-x--|
|-7-777-5-555-10-10101010-|
|-------------------------|

Bridge

|----------------------------------------------------|
|----------------------------------------------------|
|-171717171717-161616161616-141414141414141414141414-|
|-x-x-x-x-x-x--x-x-x-x-x-x--x-x-x-x-x-x-x-x-x-x-x-x--|
|-151515151515-141414141414-121212121212121212121212-|
|----------------------------------------------------|

|--------------------------------------------------|
|--------------------------------------------------|
|-17171717/19-16161616/19-141414141414141414141414-|
|-x-x-x-x--x--x-x-x-x--x--x-x-x-x-x-x-x-x-x-x-x-x--|
|-15151515/17-14141414/17-121212121212121212121212-|
|--------------------------------------------------|

Solo

|---------------------------|
|---------------------------|
|-------12-14p12-14^16r412~-| (x2)
|-12h14---------------------|
|---------------------------|
|---------------------------|

|--------------------------------------------------|
|-------------------------------------------17-----|
|-14^16r14-12-14-14^16r14-12-14-14/16-16/18----14~-|
|--------------------------------------------------|
|--------------------------------------------------|
|--------------------------------------------------|

|-------------------------------------------------|
|----15-17p15----15-17p15----15-19p15----15-17p15-|
|-16----------16----------16----------15----------|
|-------------------------------------------------|
|-------------------------------------------------|
|-------------------------------------------------|

|----------------------------------------|
|----14-15----14-15p14----14-15----------|
|-16-------16----------16-------16-14-12-|
|----------------------------------------|
|----------------------------------------|
|----------------------------------------|

Outro
|-<5>----------------<5>-----------12~~--|
|-----<5>~-<5>-<0>~------<5>~---12~~-----|
|----------------------------------------|
|----------------------------------------|
|----------------------------------------|
|----------------------------------------|

|-<5>~~---------|
|-----<5>~~~----|
|---------------|
|---------------|
|---------------|
|---------------|

Still these are not 100% and i will continue to try to make it better (if i have time)